segunda-feira, 29 de maio de 2006

A mão do tempo

Tião Carreiro
Regional ou Sertaneja, A música

A mão do tempo - Tião Carreiro

Introdução:

E|--14-14-14-13-14-11-11-11-9--11--|
B|--16-16-16-14-16-12-12-12-11-12--|
G|---------------------------------|
D|---------------------------------|
A|---------------------------------|
E|---------------------------------|

E|--7-7-7/9--9--9---------------|
B|--9-9-9/11-11-11--------------|
G|-----------------3/6-6-6-4-6--|
D|-----------------4/8-8-8-6-8--|
A|------------------------------|
E|------------------------------|

E|------------------------|
B|------------------------|
G|-3-3-3-3-3/4-3h4-3-4-4--|
D|-4-4-4-4-4-4-4---4-4-4--|
A|------------------------|
E|------------------------|

F# B
A solidão do meu peito
F# 
O meu coração reclama
Por amar quem esta distante
B  
E viver com quem não ama
B
Eu sei que você também
E             F#
Da mesma sina se queixa
Querendo viver comigo
B 
Mas o destino não deixa

Riff
F#      B      F#      B F#
E|------6---9---7--2/6-6-4-2-0-----|
B|--4/7---7---7----3/7-7-5-4-2-----|
G|---------------------------------|
D|---------------------------------|
A|---------------------------------|
E|---------------------------------|

B
Que bom se a gente pudesse
F#
Arrancar do pensamento
E sepultar a saudade
B 
Na noite do esquecimento
B
Mas a sombra da lembrança
E                F#
É igual a sombra da gente
Pelos caminhos da vida 
B
Ela esta sempre presente      

Riff

B
Vai lembrança e não me faça
F# 
Querer um amor impossível
Se o lembrar nos faz sofrer
B
Esquecer é preferível
B
O que adianta querer bem
E                F#  
Alguém que já foi embora
É como amar uma estrela
B
que foge ao romper da aurora

Riff

B
Arranque da nossa mente
F#
horas distantes vividas
Longas estradas que um dia
B 
Foram por nós percorridas
B
Apague com a mão do tempo
E                F#
os nossos rastros deixados
Como flores que secaram
B
Do chão do nosso passado   

Riff
F#      B      
E|------6---9---7--|
B|--4/7---7---7----|
G|-----------------|
D|-----------------|
A|-----------------|
E|-----------------|

Nenhum comentário: